ISO-10303-21;
HEADER;
FILE_DESCRIPTION (( 'STEP AP203' ),
    '1' );
FILE_NAME ('QM-AAQWP-10-650-1100-M.STEP',
    '2021-01-05T02:41:59',
    ( '' ),
    ( '' ),
    'SwSTEP 2.0',
    'SolidWorks 2020',
    '' );
FILE_SCHEMA (( 'CONFIG_CONTROL_DESIGN' ));
ENDSEC;

DATA;
#1 = DIRECTION ( 'NONE',  ( -0.000000000000000000, 0.000000000000000000, 1.000000000000000000 ) ) ;
#2 = CARTESIAN_POINT ( 'NONE',  ( -1.614212418857619014, 6.123233995736767268E-16, -5.000000000000000888 ) ) ;
#3 = AXIS2_PLACEMENT_3D ( 'NONE', #176, #279, #13 ) ;
#4 = DIRECTION ( 'NONE',  ( 0.000000000000000000, 0.000000000000000000, 1.000000000000000000 ) ) ;
#5 = ORIENTED_EDGE ( 'NONE', *, *, #286, .F. ) ;
#6 = ORIENTED_EDGE ( 'NONE', *, *, #76, .T. ) ;
#7 = PERSON_AND_ORGANIZATION_ROLE ( 'creator' ) ;
#8 = ORIENTED_EDGE ( 'NONE', *, *, #254, .T. ) ;
#9 = CARTESIAN_POINT ( 'NONE',  ( 3.000000000000000000, 1.555301434917138433E-15, -12.69999999999999929 ) ) ;
#10 = CC_DESIGN_DATE_AND_TIME_ASSIGNMENT ( #93, #101, ( #87 ) ) ;
#11 = ORIENTED_EDGE ( 'NONE', *, *, #286, .T. ) ;
#12 = APPLICATION_PROTOCOL_DEFINITION ( 'international standard', 'config_control_design', 1994, #79 ) ;
#13 = DIRECTION ( 'NONE',  ( 0.000000000000000000, 0.000000000000000000, -1.000000000000000000 ) ) ;
#14 = EDGE_CURVE ( 'NONE', #143, #89, #19, .T. ) ;
#15 = PERSON_AND_ORGANIZATION ( #241, #261 ) ;
#16 = SECURITY_CLASSIFICATION ( '', '', #334 ) ;
#17 = ORIENTED_EDGE ( 'NONE', *, *, #98, .T. ) ;
#18 = PLANE ( 'NONE',  #3 ) ;
#19 = CIRCLE ( 'NONE', #209, 5.000000000000000000 ) ;
#20 = COORDINATED_UNIVERSAL_TIME_OFFSET ( 8, 0, .AHEAD. ) ;
#21 = ORIENTED_EDGE ( 'NONE', *, *, #23, .F. ) ;
#22 = CC_DESIGN_APPROVAL ( #316, ( #220 ) ) ;
#23 = EDGE_CURVE ( 'NONE', #216, #191, #264, .T. ) ;
#24 = CARTESIAN_POINT ( 'NONE',  ( 0.5000000000000004441, 6.123233995736766282E-16, -5.000000000000000000 ) ) ;
#25 = CARTESIAN_POINT ( 'NONE',  ( 3.000000000000000000, 0.000000000000000000, 0.000000000000000000 ) ) ;
#26 = VECTOR ( 'NONE', #155, 1000.000000000000000 ) ;
#27 = PLANE ( 'NONE',  #117 ) ;
#28 = DIRECTION ( 'NONE',  ( 1.000000000000000000, 0.000000000000000000, 0.000000000000000000 ) ) ;
#29 = LINE ( 'NONE', #2, #36 ) ;
#30 = CC_DESIGN_PERSON_AND_ORGANIZATION_ASSIGNMENT ( #212, #326, ( #238 ) ) ;
#31 = ORIENTED_EDGE ( 'NONE', *, *, #181, .F. ) ;
#32 = CC_DESIGN_APPROVAL ( #174, ( #87 ) ) ;
#33 = ORIENTED_EDGE ( 'NONE', *, *, #76, .F. ) ;
#34 = AXIS2_PLACEMENT_3D ( 'NONE', #287, #138, #307 ) ;
#35 = DATE_AND_TIME ( #217, #160 ) ;
#36 = VECTOR ( 'NONE', #162, 1000.000000000000000 ) ;
#37 = ORIENTED_EDGE ( 'NONE', *, *, #105, .F. ) ;
#38 = VERTEX_POINT ( 'NONE', #100 ) ;
#39 = DATE_AND_TIME ( #274, #75 ) ;
#40 = CYLINDRICAL_SURFACE ( 'NONE', #45, 5.000000000000000888 ) ;
#41 = DIRECTION ( 'NONE',  ( 0.000000000000000000, 0.000000000000000000, 1.000000000000000000 ) ) ;
#42 = DIRECTION ( 'NONE',  ( 1.000000000000000000, 0.000000000000000000, 0.000000000000000000 ) ) ;
#43 = CARTESIAN_POINT ( 'NONE',  ( -3.000000000000000000, 6.123233995736766282E-16, -5.000000000000000000 ) ) ;
#44 = DIRECTION ( 'NONE',  ( 0.000000000000000000, 0.000000000000000000, 1.000000000000000000 ) ) ;
#45 = AXIS2_PLACEMENT_3D ( 'NONE', #299, #281, #44 ) ;
#46 = DIRECTION ( 'NONE',  ( 0.000000000000000000, 0.000000000000000000, 1.000000000000000000 ) ) ;
#47 = LINE ( 'NONE', #110, #58 ) ;
#48 = DIRECTION ( 'NONE',  ( 0.000000000000000000, 0.000000000000000000, 1.000000000000000000 ) ) ;
#49 = CYLINDRICAL_SURFACE ( 'NONE', #80, 12.69999999999999929 ) ;
#50 = FACE_OUTER_BOUND ( 'NONE', #268, .T. ) ;
#51 = DIRECTION ( 'NONE',  ( 0.000000000000000000, 0.000000000000000000, 1.000000000000000000 ) ) ;
#52 = PRODUCT_DEFINITION_SHAPE ( 'NONE', 'NONE',  #87 ) ;
#53 = EDGE_CURVE ( 'NONE', #216, #213, #127, .T. ) ;
#54 = EDGE_LOOP ( 'NONE', ( #33, #200, #304, #8 ) ) ;
#55 = ORIENTED_EDGE ( 'NONE', *, *, #91, .F. ) ;
#56 = CIRCLE ( 'NONE', #122, 5.000000000000000000 ) ;
#57 = PERSON_AND_ORGANIZATION ( #241, #261 ) ;
#58 = VECTOR ( 'NONE', #83, 1000.000000000000000 ) ;
#59 = ORIENTED_EDGE ( 'NONE', *, *, #215, .F. ) ;
#60 = DIRECTION ( 'NONE',  ( -1.000000000000000000, -0.000000000000000000, -0.000000000000000000 ) ) ;
#61 = APPROVAL_ROLE ( '' ) ;
#62 = CARTESIAN_POINT ( 'NONE',  ( -1.614212418857619014, 0.000000000000000000, 5.000000000000000888 ) ) ;
#63 = CIRCLE ( 'NONE', #34, 5.000000000000000000 ) ;
#64 = CARTESIAN_POINT ( 'NONE',  ( -0.5000000000000002220, 0.000000000000000000, 0.000000000000000000 ) ) ;
#65 = APPROVAL_DATE_TIME ( #39, #316 ) ;
#66 = EDGE_LOOP ( 'NONE', ( #55, #68 ) ) ;
#67 = PERSON_AND_ORGANIZATION_ROLE ( 'design_supplier' ) ;
#68 = ORIENTED_EDGE ( 'NONE', *, *, #195, .F. ) ;
#69 = ADVANCED_FACE ( 'NONE', ( #104 ), #18, .F. ) ;
#70 = DIRECTION ( 'NONE',  ( 0.000000000000000000, 0.000000000000000000, 1.000000000000000000 ) ) ;
#71 = AXIS2_PLACEMENT_3D ( 'NONE', #289, #190, #121 ) ;
#72 = APPROVAL ( #103, 'UNSPECIFIED' ) ;
#73 = DATE_AND_TIME ( #328, #82 ) ;
#74 = DIRECTION ( 'NONE',  ( 0.000000000000000000, 0.000000000000000000, 1.000000000000000000 ) ) ;
#75 = LOCAL_TIME ( 10, 41, 59.00000000000000000, #276 ) ;
#76 = EDGE_CURVE ( 'NONE', #38, #143, #224, .T. ) ;
#77 = CARTESIAN_POINT ( 'NONE',  ( 3.000000000000000000, 6.123233995736768255E-16, -5.000000000000001776 ) ) ;
#78 = DIRECTION ( 'NONE',  ( -1.000000000000000000, 0.000000000000000000, -0.000000000000000000 ) ) ;
#79 = APPLICATION_CONTEXT ( 'configuration controlled 3d designs of mechanical parts and assemblies' ) ;
#80 = AXIS2_PLACEMENT_3D ( 'NONE', #333, #234, #259 ) ;
#81 = FACE_BOUND ( 'NONE', #148, .T. ) ;
#82 = LOCAL_TIME ( 10, 41, 59.00000000000000000, #20 ) ;
#83 = DIRECTION ( 'NONE',  ( -1.000000000000000000, -0.000000000000000000, -0.000000000000000000 ) ) ;
#84 = ADVANCED_FACE ( 'NONE', ( #126 ), #40, .F. ) ;
#85 = ORIENTED_EDGE ( 'NONE', *, *, #263, .T. ) ;
#86 = VECTOR ( 'NONE', #173, 1000.000000000000000 ) ;
#87 = PRODUCT_DEFINITION ( 'UNKNOWN', '', #220, #244 ) ;
#88 = AXIS2_PLACEMENT_3D ( 'NONE', #335, #184, #51 ) ;
#89 = VERTEX_POINT ( 'NONE', #325 ) ;
#90 = APPROVAL_STATUS ( 'not_yet_approved' ) ;
#91 = EDGE_CURVE ( 'NONE', #185, #38, #111, .T. ) ;
#92 = ORIENTED_EDGE ( 'NONE', *, *, #91, .T. ) ;
#93 = DATE_AND_TIME ( #247, #310 ) ;
#94 = ORIENTED_EDGE ( 'NONE', *, *, #207, .F. ) ;
#95 = AXIS2_PLACEMENT_3D ( 'NONE', #113, #137, #4 ) ;
#96 = AXIS2_PLACEMENT_3D ( 'NONE', #203, #180, #74 ) ;
#97 = ORIENTED_EDGE ( 'NONE', *, *, #215, .T. ) ;
#98 = EDGE_CURVE ( 'NONE', #213, #120, #56, .T. ) ;
#99 = PERSON_AND_ORGANIZATION ( #241, #261 ) ;
#100 = CARTESIAN_POINT ( 'NONE',  ( -0.5000000000000002220, 6.123233995736767268E-16, -5.000000000000000888 ) ) ;
#101 = DATE_TIME_ROLE ( 'creation_date' ) ;
#102 = LINE ( 'NONE', #199, #26 ) ;
#103 = APPROVAL_STATUS ( 'not_yet_approved' ) ;
#104 = FACE_OUTER_BOUND ( 'NONE', #66, .T. ) ;
#105 = EDGE_CURVE ( 'NONE', #191, #216, #145, .T. ) ;
#106 = ORIENTED_EDGE ( 'NONE', *, *, #98, .F. ) ;
#107 = PERSON_AND_ORGANIZATION ( #241, #261 ) ;
#108 = ORIENTED_EDGE ( 'NONE', *, *, #323, .F. ) ;
#109 = DATE_TIME_ROLE ( 'classification_date' ) ;
#110 = CARTESIAN_POINT ( 'NONE',  ( -1.614212418857619014, 1.555301434917138433E-15, -12.69999999999999929 ) ) ;
#111 = CIRCLE ( 'NONE', #170, 5.000000000000000888 ) ;
#112 = PERSON_AND_ORGANIZATION ( #241, #261 ) ;
#113 = CARTESIAN_POINT ( 'NONE',  ( -3.000000000000000000, 0.000000000000000000, 0.000000000000000000 ) ) ;
#114 = CC_DESIGN_SECURITY_CLASSIFICATION ( #16, ( #220 ) ) ;
#115 = FACE_OUTER_BOUND ( 'NONE', #147, .T. ) ;
#116 = CARTESIAN_POINT ( 'NONE',  ( -1.614212418857619014, 0.000000000000000000, 0.000000000000000000 ) ) ;
#117 = AXIS2_PLACEMENT_3D ( 'NONE', #159, #235, #1 ) ;
#118 = DIRECTION ( 'NONE',  ( -1.000000000000000000, -0.000000000000000000, -0.000000000000000000 ) ) ;
#119 = EDGE_LOOP ( 'NONE', ( #256, #202 ) ) ;
#120 = VERTEX_POINT ( 'NONE', #24 ) ;
#121 = DIRECTION ( 'NONE',  ( 0.000000000000000000, 0.000000000000000000, -1.000000000000000000 ) ) ;
#122 = AXIS2_PLACEMENT_3D ( 'NONE', #278, #255, #46 ) ;
#123 = APPLICATION_PROTOCOL_DEFINITION ( 'international standard', 'config_control_design', 1994, #142 ) ;
#124 = AXIS2_PLACEMENT_3D ( 'NONE', #262, #28, #236 ) ;
#125 = EDGE_LOOP ( 'NONE', ( #290, #11, #295, #31 ) ) ;
#126 = FACE_OUTER_BOUND ( 'NONE', #188, .T. ) ;
#127 = LINE ( 'NONE', #62, #135 ) ;
#128 = DATE_AND_TIME ( #204, #186 ) ;
#129 = ADVANCED_FACE ( 'NONE', ( #130 ), #331, .F. ) ;
#130 = FACE_OUTER_BOUND ( 'NONE', #193, .T. ) ;
#131 = CARTESIAN_POINT ( 'NONE',  ( -1.614212418857619014, 6.123233995736767268E-16, -5.000000000000000888 ) ) ;
#132 = DIRECTION ( 'NONE',  ( 0.000000000000000000, 0.000000000000000000, 1.000000000000000000 ) ) ;
#133 = APPROVAL_ROLE ( '' ) ;
#134 = CARTESIAN_POINT ( 'NONE',  ( 3.000000000000000000, 0.000000000000000000, 5.000000000000001776 ) ) ;
#135 = VECTOR ( 'NONE', #228, 1000.000000000000000 ) ;
#136 = VECTOR ( 'NONE', #60, 1000.000000000000000 ) ;
#137 = DIRECTION ( 'NONE',  ( -1.000000000000000000, -0.000000000000000000, -0.000000000000000000 ) ) ;
#138 = DIRECTION ( 'NONE',  ( -1.000000000000000000, -0.000000000000000000, -0.000000000000000000 ) ) ;
#139 = EDGE_CURVE ( 'NONE', #185, #89, #102, .T. ) ;
#140 = DIRECTION ( 'NONE',  ( -1.000000000000000000, -0.000000000000000000, -0.000000000000000000 ) ) ;
#141 = AXIS2_PLACEMENT_3D ( 'NONE', #156, #221, #327 ) ;
#142 = APPLICATION_CONTEXT ( 'configuration controlled 3d designs of mechanical parts and assemblies' ) ;
#143 = VERTEX_POINT ( 'NONE', #43 ) ;
#144 = ADVANCED_FACE ( 'NONE', ( #150 ), #152, .F. ) ;
#145 = CIRCLE ( 'NONE', #141, 5.000000000000001776 ) ;
#146 = CIRCLE ( 'NONE', #124, 5.000000000000000888 ) ;
#147 = EDGE_LOOP ( 'NONE', ( #106, #165 ) ) ;
#148 = EDGE_LOOP ( 'NONE', ( #187, #288 ) ) ;
#149 = PERSON_AND_ORGANIZATION ( #241, #261 ) ;
#150 = FACE_OUTER_BOUND ( 'NONE', #163, .T. ) ;
#151 = PERSON_AND_ORGANIZATION_ROLE ( 'classification_officer' ) ;
#152 = CYLINDRICAL_SURFACE ( 'NONE', #330, 5.000000000000000888 ) ;
#153 = CARTESIAN_POINT ( 'NONE',  ( -1.614212418857619014, 0.000000000000000000, 0.000000000000000000 ) ) ;
#154 = PRODUCT_RELATED_PRODUCT_CATEGORY ( 'detail', '', ( #238 ) ) ;
#155 = DIRECTION ( 'NONE',  ( -1.000000000000000000, -0.000000000000000000, -0.000000000000000000 ) ) ;
#156 = CARTESIAN_POINT ( 'NONE',  ( 3.000000000000000000, 0.000000000000000000, 0.000000000000000000 ) ) ;
#157 = DIRECTION ( 'NONE',  ( -1.000000000000000000, -0.000000000000000000, -0.000000000000000000 ) ) ;
#158 = FACE_OUTER_BOUND ( 'NONE', #227, .T. ) ;
#159 = CARTESIAN_POINT ( 'NONE',  ( 3.000000000000000000, 12.69999999999999929, 0.000000000000000000 ) ) ;
#160 = LOCAL_TIME ( 10, 41, 59.00000000000000000, #219 ) ;
#161 = PLANE ( 'NONE',  #71 ) ;
#162 = DIRECTION ( 'NONE',  ( -1.000000000000000000, -0.000000000000000000, -0.000000000000000000 ) ) ;
#163 = EDGE_LOOP ( 'NONE', ( #37, #319, #271, #240 ) ) ;
#164 = APPROVAL_PERSON_ORGANIZATION ( #57, #316, #61 ) ;
#165 = ORIENTED_EDGE ( 'NONE', *, *, #177, .F. ) ;
#166 =( NAMED_UNIT ( * ) SI_UNIT ( $, .STERADIAN. ) SOLID_ANGLE_UNIT ( ) );
#167 = VERTEX_POINT ( 'NONE', #260 ) ;
#168 = UNCERTAINTY_MEASURE_WITH_UNIT (LENGTH_MEASURE( 1.000000000000000082E-05 ), #194, 'distance_accuracy_value', 'NONE');
#169 = DIRECTION ( 'NONE',  ( 0.000000000000000000, 0.000000000000000000, -1.000000000000000000 ) ) ;
#170 = AXIS2_PLACEMENT_3D ( 'NONE', #64, #42, #169 ) ;
#171 = AXIS2_PLACEMENT_3D ( 'NONE', #210, #312, #48 ) ;
#172 = CARTESIAN_POINT ( 'NONE',  ( 3.000000000000000000, 0.000000000000000000, 0.000000000000000000 ) ) ;
#173 = DIRECTION ( 'NONE',  ( -1.000000000000000000, -0.000000000000000000, -0.000000000000000000 ) ) ;
#174 = APPROVAL ( #214, 'UNSPECIFIED' ) ;
#175 = AXIS2_PLACEMENT_3D ( 'NONE', #284, #140, #132 ) ;
#176 = CARTESIAN_POINT ( 'NONE',  ( -0.5000000000000002220, 5.000000000000000000, 0.000000000000000000 ) ) ;
#177 = EDGE_CURVE ( 'NONE', #120, #213, #63, .T. ) ;
#178 = CARTESIAN_POINT ( 'NONE',  ( -3.000000000000000000, 0.000000000000000000, 12.69999999999999929 ) ) ;
#179 = FACE_OUTER_BOUND ( 'NONE', #248, .T. ) ;
#180 = DIRECTION ( 'NONE',  ( -1.000000000000000000, -0.000000000000000000, -0.000000000000000000 ) ) ;
#181 = EDGE_CURVE ( 'NONE', #245, #293, #225, .T. ) ;
#182 = MANIFOLD_SOLID_BREP ( 'Ðý×', #232 ) ;
#183 = DIRECTION ( 'NONE',  ( -0.000000000000000000, 0.000000000000000000, 1.000000000000000000 ) ) ;
#184 = DIRECTION ( 'NONE',  ( -1.000000000000000000, -0.000000000000000000, -0.000000000000000000 ) ) ;
#185 = VERTEX_POINT ( 'NONE', #205 ) ;
#186 = LOCAL_TIME ( 10, 41, 59.00000000000000000, #201 ) ;
#187 = ORIENTED_EDGE ( 'NONE', *, *, #23, .T. ) ;
#188 = EDGE_LOOP ( 'NONE', ( #92, #6, #273, #269 ) ) ;
#189 = EDGE_CURVE ( 'NONE', #293, #245, #322, .T. ) ;
#190 = DIRECTION ( 'NONE',  ( 1.000000000000000000, 0.000000000000000000, 0.000000000000000000 ) ) ;
#191 = VERTEX_POINT ( 'NONE', #77 ) ;
#192 = MECHANICAL_CONTEXT ( 'NONE', #79, 'mechanical' ) ;
#193 = EDGE_LOOP ( 'NONE', ( #94, #21, #298, #17 ) ) ;
#194 =( LENGTH_UNIT ( ) NAMED_UNIT ( * ) SI_UNIT ( .MILLI., .METRE. ) );
#195 = EDGE_CURVE ( 'NONE', #38, #185, #146, .T. ) ;
#196 = CARTESIAN_POINT ( 'NONE',  ( -3.000000000000000000, 0.000000000000000000, 0.000000000000000000 ) ) ;
#197 = AXIS2_PLACEMENT_3D ( 'NONE', #25, #118, #211 ) ;
#198 = CC_DESIGN_PERSON_AND_ORGANIZATION_ASSIGNMENT ( #112, #231, ( #220 ) ) ;
#199 = CARTESIAN_POINT ( 'NONE',  ( -1.614212418857619014, 0.000000000000000000, 5.000000000000000888 ) ) ;
#200 = ORIENTED_EDGE ( 'NONE', *, *, #195, .T. ) ;
#201 = COORDINATED_UNIVERSAL_TIME_OFFSET ( 8, 0, .AHEAD. ) ;
#202 = ORIENTED_EDGE ( 'NONE', *, *, #14, .F. ) ;
#203 = CARTESIAN_POINT ( 'NONE',  ( -3.000000000000000000, 0.000000000000000000, 0.000000000000000000 ) ) ;
#204 = CALENDAR_DATE ( 2021, 5, 1 ) ;
#205 = CARTESIAN_POINT ( 'NONE',  ( -0.5000000000000002220, 0.000000000000000000, 5.000000000000000888 ) ) ;
#206 = AXIS2_PLACEMENT_3D ( 'NONE', #324, #41, #297 ) ;
#207 = EDGE_CURVE ( 'NONE', #191, #120, #29, .T. ) ;
#208 = PLANE ( 'NONE',  #292 ) ;
#209 = AXIS2_PLACEMENT_3D ( 'NONE', #196, #329, #70 ) ;
#210 = CARTESIAN_POINT ( 'NONE',  ( -1.614212418857619014, 0.000000000000000000, 0.000000000000000000 ) ) ;
#211 = DIRECTION ( 'NONE',  ( 0.000000000000000000, 0.000000000000000000, 1.000000000000000000 ) ) ;
#212 = PERSON_AND_ORGANIZATION ( #241, #261 ) ;
#213 = VERTEX_POINT ( 'NONE', #237 ) ;
#214 = APPROVAL_STATUS ( 'not_yet_approved' ) ;
#215 = EDGE_CURVE ( 'NONE', #167, #332, #266, .T. ) ;
#216 = VERTEX_POINT ( 'NONE', #134 ) ;
#217 = CALENDAR_DATE ( 2021, 5, 1 ) ;
#218 = DIRECTION ( 'NONE',  ( 0.000000000000000000, 0.000000000000000000, 1.000000000000000000 ) ) ;
#219 = COORDINATED_UNIVERSAL_TIME_OFFSET ( 8, 0, .AHEAD. ) ;
#220 = PRODUCT_DEFINITION_FORMATION_WITH_SPECIFIED_SOURCE ( 'ANY', '', #238, .NOT_KNOWN. ) ;
#221 = DIRECTION ( 'NONE',  ( -1.000000000000000000, -0.000000000000000000, -0.000000000000000000 ) ) ;
#222 = CC_DESIGN_PERSON_AND_ORGANIZATION_ASSIGNMENT ( #15, #67, ( #220 ) ) ;
#223 = APPROVAL_DATE_TIME ( #128, #72 ) ;
#224 = LINE ( 'NONE', #131, #86 ) ;
#225 = CIRCLE ( 'NONE', #95, 12.69999999999999929 ) ;
#226 = CIRCLE ( 'NONE', #96, 5.000000000000000000 ) ;
#227 = EDGE_LOOP ( 'NONE', ( #59, #5 ) ) ;
#228 = DIRECTION ( 'NONE',  ( -1.000000000000000000, -0.000000000000000000, -0.000000000000000000 ) ) ;
#229 = APPROVAL_PERSON_ORGANIZATION ( #107, #72, #133 ) ;
#230 = FACE_OUTER_BOUND ( 'NONE', #125, .T. ) ;
#231 = PERSON_AND_ORGANIZATION_ROLE ( 'creator' ) ;
#232 = CLOSED_SHELL ( 'NONE', ( #300, #84, #144, #313, #129, #296, #317, #258, #306, #69 ) ) ;
#233 = CIRCLE ( 'NONE', #88, 12.69999999999999929 ) ;
#234 = DIRECTION ( 'NONE',  ( -1.000000000000000000, -0.000000000000000000, -0.000000000000000000 ) ) ;
#235 = DIRECTION ( 'NONE',  ( -1.000000000000000000, 0.000000000000000000, -0.000000000000000000 ) ) ;
#236 = DIRECTION ( 'NONE',  ( 0.000000000000000000, 0.000000000000000000, -1.000000000000000000 ) ) ;
#237 = CARTESIAN_POINT ( 'NONE',  ( 0.5000000000000004441, 0.000000000000000000, 5.000000000000000000 ) ) ;
#238 = PRODUCT ( 'QM-AAQWP-10-650-1100-M', 'QM-AAQWP-10-650-1100-M', '', ( #192 ) ) ;
#239 = ORIENTED_EDGE ( 'NONE', *, *, #189, .F. ) ;
#240 = ORIENTED_EDGE ( 'NONE', *, *, #53, .F. ) ;
#241 = PERSON ( 'UNSPECIFIED', 'UNSPECIFIED', 'UNSPECIFIED', ('UNSPECIFIED'), ('UNSPECIFIED'), ('UNSPECIFIED') ) ;
#242 = APPROVAL_ROLE ( '' ) ;
#243 = ORIENTED_EDGE ( 'NONE', *, *, #181, .T. ) ;
#244 = DESIGN_CONTEXT ( 'detailed design', #142, 'design' ) ;
#245 = VERTEX_POINT ( 'NONE', #314 ) ;
#246 = AXIS2_PLACEMENT_3D ( 'NONE', #172, #303, #218 ) ;
#247 = CALENDAR_DATE ( 2021, 5, 1 ) ;
#248 = EDGE_LOOP ( 'NONE', ( #97, #85, #239, #108 ) ) ;
#249 = CC_DESIGN_PERSON_AND_ORGANIZATION_ASSIGNMENT ( #302, #151, ( #16 ) ) ;
#250 = SHAPE_DEFINITION_REPRESENTATION ( #52, #267 ) ;
#251 = CC_DESIGN_APPROVAL ( #72, ( #16 ) ) ;
#252 = ORIENTED_EDGE ( 'NONE', *, *, #189, .T. ) ;
#253 = DIRECTION ( 'NONE',  ( -1.000000000000000000, -0.000000000000000000, -0.000000000000000000 ) ) ;
#254 = EDGE_CURVE ( 'NONE', #89, #143, #226, .T. ) ;
#255 = DIRECTION ( 'NONE',  ( -1.000000000000000000, -0.000000000000000000, -0.000000000000000000 ) ) ;
#256 = ORIENTED_EDGE ( 'NONE', *, *, #254, .F. ) ;
#257 = DIRECTION ( 'NONE',  ( 0.000000000000000000, 0.000000000000000000, 1.000000000000000000 ) ) ;
#258 = ADVANCED_FACE ( 'NONE', ( #230 ), #49, .T. ) ;
#259 = DIRECTION ( 'NONE',  ( 0.000000000000000000, 0.000000000000000000, 1.000000000000000000 ) ) ;
#260 = CARTESIAN_POINT ( 'NONE',  ( 3.000000000000000000, 0.000000000000000000, 12.69999999999999929 ) ) ;
#261 = ORGANIZATION ( 'UNSPECIFIED', 'UNSPECIFIED', '' ) ;
#262 = CARTESIAN_POINT ( 'NONE',  ( -0.5000000000000002220, 0.000000000000000000, 0.000000000000000000 ) ) ;
#263 = EDGE_CURVE ( 'NONE', #332, #245, #47, .T. ) ;
#264 = CIRCLE ( 'NONE', #246, 5.000000000000001776 ) ;
#265 = DIRECTION ( 'NONE',  ( 0.000000000000000000, 0.000000000000000000, 1.000000000000000000 ) ) ;
#266 = CIRCLE ( 'NONE', #197, 12.69999999999999929 ) ;
#267 = ADVANCED_BREP_SHAPE_REPRESENTATION ( 'QM-AAQWP-10-650-1100-M', ( #182, #206 ), #315 ) ;
#268 = EDGE_LOOP ( 'NONE', ( #252, #243 ) ) ;
#269 = ORIENTED_EDGE ( 'NONE', *, *, #139, .F. ) ;
#270 = APPROVAL_DATE_TIME ( #35, #174 ) ;
#271 = ORIENTED_EDGE ( 'NONE', *, *, #177, .T. ) ;
#272 =( NAMED_UNIT ( * ) PLANE_ANGLE_UNIT ( ) SI_UNIT ( $, .RADIAN. ) );
#273 = ORIENTED_EDGE ( 'NONE', *, *, #14, .T. ) ;
#274 = CALENDAR_DATE ( 2021, 5, 1 ) ;
#275 = DIRECTION ( 'NONE',  ( 0.000000000000000000, 0.000000000000000000, 1.000000000000000000 ) ) ;
#276 = COORDINATED_UNIVERSAL_TIME_OFFSET ( 8, 0, .AHEAD. ) ;
#277 = DIRECTION ( 'NONE',  ( -1.000000000000000000, -0.000000000000000000, -0.000000000000000000 ) ) ;
#278 = CARTESIAN_POINT ( 'NONE',  ( 0.5000000000000004441, 0.000000000000000000, 0.000000000000000000 ) ) ;
#279 = DIRECTION ( 'NONE',  ( 1.000000000000000000, 0.000000000000000000, 0.000000000000000000 ) ) ;
#280 = CC_DESIGN_PERSON_AND_ORGANIZATION_ASSIGNMENT ( #99, #7, ( #87 ) ) ;
#281 = DIRECTION ( 'NONE',  ( -1.000000000000000000, -0.000000000000000000, -0.000000000000000000 ) ) ;
#282 = CYLINDRICAL_SURFACE ( 'NONE', #318, 5.000000000000000888 ) ;
#283 = CYLINDRICAL_SURFACE ( 'NONE', #171, 12.69999999999999929 ) ;
#284 = CARTESIAN_POINT ( 'NONE',  ( -3.000000000000000000, 0.000000000000000000, 0.000000000000000000 ) ) ;
#285 = FACE_BOUND ( 'NONE', #119, .T. ) ;
#286 = EDGE_CURVE ( 'NONE', #332, #167, #233, .T. ) ;
#287 = CARTESIAN_POINT ( 'NONE',  ( 0.5000000000000004441, 0.000000000000000000, 0.000000000000000000 ) ) ;
#288 = ORIENTED_EDGE ( 'NONE', *, *, #105, .T. ) ;
#289 = CARTESIAN_POINT ( 'NONE',  ( -3.000000000000000000, 5.000000000000000000, 0.000000000000000000 ) ) ;
#290 = ORIENTED_EDGE ( 'NONE', *, *, #263, .F. ) ;
#291 = CARTESIAN_POINT ( 'NONE',  ( -1.614212418857619014, 0.000000000000000000, 12.69999999999999929 ) ) ;
#292 = AXIS2_PLACEMENT_3D ( 'NONE', #311, #78, #183 ) ;
#293 = VERTEX_POINT ( 'NONE', #178 ) ;
#294 = LINE ( 'NONE', #291, #136 ) ;
#295 = ORIENTED_EDGE ( 'NONE', *, *, #323, .T. ) ;
#296 = ADVANCED_FACE ( 'NONE', ( #309 ), #282, .F. ) ;
#297 = DIRECTION ( 'NONE',  ( 1.000000000000000000, 0.000000000000000000, 0.000000000000000000 ) ) ;
#298 = ORIENTED_EDGE ( 'NONE', *, *, #53, .T. ) ;
#299 = CARTESIAN_POINT ( 'NONE',  ( -1.614212418857619014, 0.000000000000000000, 0.000000000000000000 ) ) ;
#300 = ADVANCED_FACE ( 'NONE', ( #179 ), #283, .T. ) ;
#301 = CARTESIAN_POINT ( 'NONE',  ( -1.614212418857619014, 0.000000000000000000, 0.000000000000000000 ) ) ;
#302 = PERSON_AND_ORGANIZATION ( #241, #261 ) ;
#303 = DIRECTION ( 'NONE',  ( -1.000000000000000000, -0.000000000000000000, -0.000000000000000000 ) ) ;
#304 = ORIENTED_EDGE ( 'NONE', *, *, #139, .T. ) ;
#305 = AXIS2_PLACEMENT_3D ( 'NONE', #301, #277, #275 ) ;
#306 = ADVANCED_FACE ( 'NONE', ( #158, #81 ), #27, .F. ) ;
#307 = DIRECTION ( 'NONE',  ( 0.000000000000000000, 0.000000000000000000, 1.000000000000000000 ) ) ;
#308 = CC_DESIGN_DATE_AND_TIME_ASSIGNMENT ( #73, #109, ( #16 ) ) ;
#309 = FACE_OUTER_BOUND ( 'NONE', #54, .T. ) ;
#310 = LOCAL_TIME ( 10, 41, 59.00000000000000000, #321 ) ;
#311 = CARTESIAN_POINT ( 'NONE',  ( 0.5000000000000002220, 5.000000000000000000, 0.000000000000000000 ) ) ;
#312 = DIRECTION ( 'NONE',  ( -1.000000000000000000, -0.000000000000000000, -0.000000000000000000 ) ) ;
#313 = ADVANCED_FACE ( 'NONE', ( #115 ), #208, .F. ) ;
#314 = CARTESIAN_POINT ( 'NONE',  ( -3.000000000000000000, 1.555301434917138433E-15, -12.69999999999999929 ) ) ;
#315 =( GEOMETRIC_REPRESENTATION_CONTEXT ( 3 ) GLOBAL_UNCERTAINTY_ASSIGNED_CONTEXT ( ( #168 ) ) GLOBAL_UNIT_ASSIGNED_CONTEXT ( ( #194, #272, #166 ) ) REPRESENTATION_CONTEXT ( 'NONE', 'WORKASPACE' ) );
#316 = APPROVAL ( #90, 'UNSPECIFIED' ) ;
#317 = ADVANCED_FACE ( 'NONE', ( #285, #50 ), #161, .F. ) ;
#318 = AXIS2_PLACEMENT_3D ( 'NONE', #116, #157, #257 ) ;
#319 = ORIENTED_EDGE ( 'NONE', *, *, #207, .T. ) ;
#320 = APPROVAL_PERSON_ORGANIZATION ( #149, #174, #242 ) ;
#321 = COORDINATED_UNIVERSAL_TIME_OFFSET ( 8, 0, .AHEAD. ) ;
#322 = CIRCLE ( 'NONE', #175, 12.69999999999999929 ) ;
#323 = EDGE_CURVE ( 'NONE', #167, #293, #294, .T. ) ;
#324 = CARTESIAN_POINT ( 'NONE',  ( 0.000000000000000000, 0.000000000000000000, 0.000000000000000000 ) ) ;
#325 = CARTESIAN_POINT ( 'NONE',  ( -3.000000000000000000, 0.000000000000000000, 5.000000000000000000 ) ) ;
#326 = PERSON_AND_ORGANIZATION_ROLE ( 'design_owner' ) ;
#327 = DIRECTION ( 'NONE',  ( 0.000000000000000000, 0.000000000000000000, 1.000000000000000000 ) ) ;
#328 = CALENDAR_DATE ( 2021, 5, 1 ) ;
#329 = DIRECTION ( 'NONE',  ( -1.000000000000000000, -0.000000000000000000, -0.000000000000000000 ) ) ;
#330 = AXIS2_PLACEMENT_3D ( 'NONE', #153, #253, #265 ) ;
#331 = CYLINDRICAL_SURFACE ( 'NONE', #305, 5.000000000000000888 ) ;
#332 = VERTEX_POINT ( 'NONE', #9 ) ;
#333 = CARTESIAN_POINT ( 'NONE',  ( -1.614212418857619014, 0.000000000000000000, 0.000000000000000000 ) ) ;
#334 = SECURITY_CLASSIFICATION_LEVEL ( 'unclassified' ) ;
#335 = CARTESIAN_POINT ( 'NONE',  ( 3.000000000000000000, 0.000000000000000000, 0.000000000000000000 ) ) ;
ENDSEC;
END-ISO-10303-21;
